Punk is not a fashion, it's an attitude to live

  Startseite
    Fett!
    Xtaster
    Danko Jones
    Leute
    Konzertberichte
    Die Ärzte
    Distanzierung
  Über...
  Danko Jones Videos
  Rod Army tabs
  Gästebuch
  Kontakt
 



  Links
   Mein Malbuch
   Rock n Malbuch
   Danko Jones
   Rod Army
   Die Ärzte
   Xtaster
   Rock'n'Roll Herberge in Berlin
   lol
   Tinusch
   Schweinzelhaltung
   Nazis raus aus dem Internet



http://myblog.de/lynati

Gratis bloggen bei
myblog.de





RODARMY
Die Multimedia Tabulatur

Das wichtigste an der nummer ist natuerlich der rhythmus,denn er besteht nur aus 3 Riffs.ich habe den refrain in 2 sektionen unterteilt.
die erste sektion zeigt den grundrhythmus des songs.wichtig sind hier die kontrollierten 8tel der offenen E saite.

1.sektion
E :-------------------------------
B :--7---8-----7----8----7-7-8--
G :--7---7-----7----7----7-7-7--
D :-------------------------------
A :-------------------------------
E :---0-0--0-0--0-0--0-0------0-




Die 2te sektion hat's in sich,denn hier werden die finger schoen ausgestreckt,dabei die intonation haltend = gleichmaessiger druck auf die saiten ist essentiell.und denkt daran die B und E saite abzudaempfen.

sektion 2.
E :-------------------------------
B :-------------------------------
G :--------7----------------------
D :------5-----------7--------5--
A :-0-3-----------5--------3-----
E :-----------0-3------0-5-------



Die Strophe ist quasi zum ausruhen.hier schoen die 8tel sauber von oben spielen (downstrokes).

Strophe:
E :-------------------------------------------------------------------------------------------------
B :-------------------------------------------------------------------------------------------------
G :----------------------------------------5----------2-------------9-----------------11----11-12-
D :----------------------------------------5----------2-----5---5---9----------------12----12-12-
A :-----------------------------------0-2-3----------0-----3---5---7------------------------------
E :-0-0-0-0-0-0-0-0-0-2-3-0-2-3---------3-0-3-----------------0-0-0-0-0-0-0---0-0--------

die Bridge wird schon legato gespielt,dabei ein leichtes fingerbirato einsetzen (im D akkord D/F#).

bridge:

E :----------------------------------------------------
B :----------------------------------------------------
G :----------------------------------------------------
D :--5--4--9--4--5--4--9---------------11----11-12-
A :--3--5--7--5--3--5--7---------------12----12-12-
E :------------------------0-0-0-0-0-0-0--0-0--------
~ ~ ~ (~ : vibrato)



jetzt ueben,ueben,ueben...


...und fuer alle die mitsingen wollen,der text mit den akkorden:

em / / / Csus9 Gsus9 Am7
rodarmy ( x4)

C G/D

em C A
ich moechte nicht einer gruppierung angehoern
C G/D em D Dsus4
nein ich glaub ich wuerde da nur stoern
em C A
ich moechte nicht weniger als ein koenigreich
C G/D em D Dsus4
es steht mir zu,und ich nimm es mir gleich.


bridge:

C D
die welt braucht einen meister
E D
rodrigo so heisst er
C D E D Dsus4
der king of rock,koennt ihr das nicht kapieren?
C D E D
fuer einen kuss auf meinem ring,kniet jeder nieder vor dem king
C A
geboren um diese welt zu regieren.

em Csus9 Gsus9 Am7
rodarmy ( x4)

C G/D

em C A
ich moechte nicht das du weiter an andere denkst
C G/D em D Dsus4
es reicht wenn du mir dein kleines leben schenkst.
em C A
du wiest ich spiele bass in der besten band der welt
C G/D em D Dsus4
das ist nur hobby ich tu das nicht fuer geld.

bridge:
C D E D
ich tu den beiden vasallen nur einen gefallen,
C D E D Dsus4
sie wuerden ohne mich nicht existieren
C D E D
selbst jimi hendrix betete zum chilemann aus brd
C A
geboren um diese welt zu regieren

em Csus9 Gsus9 Am7
zu regieren...

(hail ,hail ,hail and kill - rodarmy)

© Rodrigo Gonzalez
Text: felsenheimer/gonzalez

ein einfach geiles lied.. wie ich finde ;-)





Und hier -ganz -versteckt- ein paar Vids von mir *G*

Claudia 2




Kopfhaut:





Batteln / Betteln *G*





MONKEY ISLAND... zwar nich von mir aber geil...







Verantwortlich für die Inhalte ist der Autor. Dein kostenloses Blog bei myblog.de! Datenschutzerklärung
Werbung